ISO-10303-21;
HEADER;
FILE_DESCRIPTION(('CATIA V5 STEP Exchange'),'2;1');

FILE_NAME('Z:\\DESSINS CATIA\\aDESSINS\\Sucette M20x150 PTFE(i2c)\\Sucette M20x150 PTFE.stp','2021-10-14T07:21:49+00:00',('none'),('none'),'CATIA Version 5 Release 21 GA (IN-10)','CATIA V5 STEP AP203','none');

FILE_SCHEMA(('CONFIG_CONTROL_DESIGN'));

ENDSEC;
/* file written by CATIA V5R21 */
DATA;
#5=PRODUCT('Sucette M20x150 PTFE','','',(#2)) ;
#1=APPLICATION_CONTEXT('configuration controlled 3D design of mechanical parts and assemblies') ;
#14=PRODUCT_DEFINITION('',' ',#6,#3) ;
#16=SECURITY_CLASSIFICATION(' ',' ',#15) ;
#15=SECURITY_CLASSIFICATION_LEVEL('unclassified') ;
#47=CARTESIAN_POINT(' ',(0.,0.,0.)) ;
#52=CARTESIAN_POINT('Axis2P3D Location',(0.,1.5,0.)) ;
#57=CARTESIAN_POINT('Axis2P3D Location',(0.,38.,0.)) ;
#61=CARTESIAN_POINT('Vertex',(6.71195754046,38.,12.2861558665)) ;
#63=CARTESIAN_POINT('Vertex',(-6.71195754046,38.,-12.2861558665)) ;
#66=CARTESIAN_POINT('Line Origine',(6.71195754046,25.4226162893,12.2861558665)) ;
#70=CARTESIAN_POINT('Vertex',(6.71195754046,12.8452325787,12.2861558665)) ;
#73=CARTESIAN_POINT('Axis2P3D Location',(0.,12.8452325787,0.)) ;
#77=CARTESIAN_POINT('Vertex',(-6.71195754046,12.8452325787,-12.2861558665)) ;
#80=CARTESIAN_POINT('Line Origine',(-6.71195754046,25.4226162893,-12.2861558665)) ;
#92=CARTESIAN_POINT('Axis2P3D Location',(0.,38.,0.)) ;
#97=CARTESIAN_POINT('Axis2P3D Location',(0.,12.8452325787,0.)) ;
#109=CARTESIAN_POINT('Axis2P3D Location',(0.,0.,0.)) ;
#114=CARTESIAN_POINT('Axis2P3D Location',(0.,0.,0.)) ;
#118=CARTESIAN_POINT('Vertex',(8.26227012259,-8.,15.1239840129)) ;
#121=CARTESIAN_POINT('Axis2P3D Location',(0.,-8.,0.)) ;
#125=CARTESIAN_POINT('Vertex',(-8.26227012259,-8.,-15.1239840129)) ;
#128=CARTESIAN_POINT('Axis2P3D Location',(0.,0.,0.)) ;
#140=CARTESIAN_POINT('Axis2P3D Location',(0.,-8.,0.)) ;
#152=CARTESIAN_POINT('Axis2P3D Location',(0.,1.5,0.)) ;
#157=CARTESIAN_POINT('Axis2P3D Location',(0.,-8.,0.)) ;
#161=CARTESIAN_POINT('Vertex',(7.11946924827,-8.,13.0321010441)) ;
#163=CARTESIAN_POINT('Vertex',(-7.11946924827,-8.,-13.0321010441)) ;
#166=CARTESIAN_POINT('Line Origine',(7.11946924827,-10.5,13.0321010441)) ;
#170=CARTESIAN_POINT('Vertex',(7.11946924827,-13.,13.0321010441)) ;
#173=CARTESIAN_POINT('Axis2P3D Location',(0.,-13.,0.)) ;
#177=CARTESIAN_POINT('Vertex',(-7.11946924827,-13.,-13.0321010441)) ;
#180=CARTESIAN_POINT('Line Origine',(-7.11946924827,-10.5,-13.0321010441)) ;
#192=CARTESIAN_POINT('Axis2P3D Location',(0.,-8.,0.)) ;
#197=CARTESIAN_POINT('Axis2P3D Location',(0.,-13.,0.)) ;
#209=CARTESIAN_POINT('Axis2P3D Location',(0.,1.5,0.)) ;
#214=CARTESIAN_POINT('Axis2P3D Location',(0.,-13.,0.)) ;
#218=CARTESIAN_POINT('Vertex',(5.75310646325,-13.,10.5309907427)) ;
#220=CARTESIAN_POINT('Vertex',(-5.75310646325,-13.,-10.5309907427)) ;
#223=CARTESIAN_POINT('Line Origine',(5.75310646325,-24.,10.5309907427)) ;
#227=CARTESIAN_POINT('Vertex',(5.75310646325,-35.,10.5309907427)) ;
#230=CARTESIAN_POINT('Axis2P3D Location',(0.,-35.,0.)) ;
#234=CARTESIAN_POINT('Vertex',(-5.75310646325,-35.,-10.5309907427)) ;
#237=CARTESIAN_POINT('Line Origine',(-5.75310646325,-24.,-10.5309907427)) ;
#249=CARTESIAN_POINT('Axis2P3D Location',(0.,-13.,0.)) ;
#254=CARTESIAN_POINT('Axis2P3D Location',(0.,-35.,0.)) ;
#266=CARTESIAN_POINT('Axis2P3D Location',(0.,1.5,0.)) ;
#271=CARTESIAN_POINT('Axis2P3D Location',(0.,-35.,0.)) ;
#275=CARTESIAN_POINT('Vertex',(4.55454261674,-35.,8.33703433796)) ;
#277=CARTESIAN_POINT('Vertex',(-4.55454261674,-35.,-8.33703433796)) ;
#280=CARTESIAN_POINT('Line Origine',(4.55454261674,1.5,8.33703433796)) ;
#284=CARTESIAN_POINT('Vertex',(4.55454261674,38.,8.33703433796)) ;
#287=CARTESIAN_POINT('Axis2P3D Location',(0.,38.,0.)) ;
#291=CARTESIAN_POINT('Vertex',(-4.55454261674,38.,-8.33703433796)) ;
#294=CARTESIAN_POINT('Line Origine',(-4.55454261674,1.5,-8.33703433796)) ;
#306=CARTESIAN_POINT('Axis2P3D Location',(0.,-35.,0.)) ;
#311=CARTESIAN_POINT('Axis2P3D Location',(0.,38.,0.)) ;
#323=CARTESIAN_POINT('Axis2P3D Location',(0.,-8.,14.85)) ;
#337=CARTESIAN_POINT('Axis2P3D Location',(0.,-13.,12.)) ;
#351=CARTESIAN_POINT('Axis2P3D Location',(0.,-35.,9.5)) ;
#365=CARTESIAN_POINT('Axis2P3D Location',(0.,38.,14.)) ;
#382=CARTESIAN_POINT('Line Origine',(0.,25.4226162893,14.)) ;
#386=CARTESIAN_POINT('Limit',(0.,38.,14.)) ;
#387=CARTESIAN_POINT('Limit',(0.,12.8452325787,14.)) ;
#390=CARTESIAN_POINT('Axis2P3D Location',(0.,0.,0.)) ;
#394=CARTESIAN_POINT('Limit',(0.,12.8452325787,14.)) ;
#395=CARTESIAN_POINT('Limit',(0.,-8.,17.2336879396)) ;
#398=CARTESIAN_POINT('Line Origine',(0.,-8.,16.0418439698)) ;
#402=CARTESIAN_POINT('Limit',(0.,-8.,17.2336879396)) ;
#403=CARTESIAN_POINT('Limit',(0.,-8.,14.85)) ;
#406=CARTESIAN_POINT('Line Origine',(0.,-10.5,14.85)) ;
#410=CARTESIAN_POINT('Limit',(0.,-8.,14.85)) ;
#411=CARTESIAN_POINT('Limit',(0.,-13.,14.85)) ;
#414=CARTESIAN_POINT('Line Origine',(0.,-13.,13.425)) ;
#418=CARTESIAN_POINT('Limit',(0.,-13.,14.85)) ;
#419=CARTESIAN_POINT('Limit',(0.,-13.,12.)) ;
#422=CARTESIAN_POINT('Line Origine',(0.,-24.,12.)) ;
#426=CARTESIAN_POINT('Limit',(0.,-13.,12.)) ;
#427=CARTESIAN_POINT('Limit',(0.,-35.,12.)) ;
#430=CARTESIAN_POINT('Line Origine',(0.,-35.,10.75)) ;
#434=CARTESIAN_POINT('Limit',(0.,-35.,12.)) ;
#435=CARTESIAN_POINT('Limit',(0.,-35.,9.5)) ;
#438=CARTESIAN_POINT('Line Origine',(0.,1.5,9.5)) ;
#442=CARTESIAN_POINT('Limit',(0.,-35.,9.5)) ;
#443=CARTESIAN_POINT('Limit',(0.,38.,9.5)) ;
#446=CARTESIAN_POINT('Line Origine',(0.,38.,11.75)) ;
#450=CARTESIAN_POINT('Limit',(0.,38.,9.5)) ;
#451=CARTESIAN_POINT('Limit',(0.,38.,14.)) ;
#458=CARTESIAN_POINT('Axis2P3D Location',(0.,0.,0.)) ;
#53=DIRECTION('Axis2P3D Direction',(0.,1.,0.)) ;
#54=DIRECTION('Axis2P3D XDirection',(0.479425538604,-0.,0.87758256189)) ;
#58=DIRECTION('Axis2P3D Direction',(0.,1.,0.)) ;
#67=DIRECTION('Vector Direction',(0.,1.,0.)) ;
#74=DIRECTION('Axis2P3D Direction',(0.,1.,0.)) ;
#81=DIRECTION('Vector Direction',(0.,1.,0.)) ;
#93=DIRECTION('Axis2P3D Direction',(0.,1.,0.)) ;
#98=DIRECTION('Axis2P3D Direction',(0.,1.,0.)) ;
#110=DIRECTION('Axis2P3D Direction',(0.,1.,0.)) ;
#111=DIRECTION('Axis2P3D XDirection',(0.479425538604,0.,0.87758256189)) ;
#115=DIRECTION('Axis2P3D Direction',(-0.87758256189,0.,0.479425538604)) ;
#122=DIRECTION('Axis2P3D Direction',(0.,1.,0.)) ;
#129=DIRECTION('Axis2P3D Direction',(0.87758256189,0.,-0.479425538604)) ;
#141=DIRECTION('Axis2P3D Direction',(0.,1.,0.)) ;
#153=DIRECTION('Axis2P3D Direction',(0.,1.,0.)) ;
#154=DIRECTION('Axis2P3D XDirection',(0.479425538604,-0.,0.87758256189)) ;
#158=DIRECTION('Axis2P3D Direction',(0.,1.,0.)) ;
#167=DIRECTION('Vector Direction',(0.,1.,0.)) ;
#174=DIRECTION('Axis2P3D Direction',(0.,1.,0.)) ;
#181=DIRECTION('Vector Direction',(0.,1.,0.)) ;
#193=DIRECTION('Axis2P3D Direction',(0.,1.,0.)) ;
#198=DIRECTION('Axis2P3D Direction',(0.,1.,0.)) ;
#210=DIRECTION('Axis2P3D Direction',(0.,1.,0.)) ;
#211=DIRECTION('Axis2P3D XDirection',(0.479425538604,-0.,0.87758256189)) ;
#215=DIRECTION('Axis2P3D Direction',(0.,1.,0.)) ;
#224=DIRECTION('Vector Direction',(0.,1.,0.)) ;
#231=DIRECTION('Axis2P3D Direction',(0.,1.,0.)) ;
#238=DIRECTION('Vector Direction',(0.,1.,0.)) ;
#250=DIRECTION('Axis2P3D Direction',(0.,1.,0.)) ;
#255=DIRECTION('Axis2P3D Direction',(0.,1.,0.)) ;
#267=DIRECTION('Axis2P3D Direction',(0.,1.,0.)) ;
#268=DIRECTION('Axis2P3D XDirection',(0.479425538604,-0.,0.87758256189)) ;
#272=DIRECTION('Axis2P3D Direction',(0.,1.,0.)) ;
#281=DIRECTION('Vector Direction',(0.,1.,0.)) ;
#288=DIRECTION('Axis2P3D Direction',(0.,1.,0.)) ;
#295=DIRECTION('Vector Direction',(0.,1.,0.)) ;
#307=DIRECTION('Axis2P3D Direction',(0.,1.,0.)) ;
#312=DIRECTION('Axis2P3D Direction',(0.,1.,0.)) ;
#324=DIRECTION('Axis2P3D Direction',(0.,1.,0.)) ;
#325=DIRECTION('Axis2P3D XDirection',(1.,-0.,0.)) ;
#338=DIRECTION('Axis2P3D Direction',(0.,1.,0.)) ;
#339=DIRECTION('Axis2P3D XDirection',(1.,-0.,0.)) ;
#352=DIRECTION('Axis2P3D Direction',(0.,1.,0.)) ;
#353=DIRECTION('Axis2P3D XDirection',(1.,-0.,0.)) ;
#366=DIRECTION('Axis2P3D Direction',(0.,1.,0.)) ;
#367=DIRECTION('Axis2P3D XDirection',(1.,-0.,0.)) ;
#383=DIRECTION('Vector Direction',(0.,-1.,0.)) ;
#391=DIRECTION('Axis2P3D Direction',(1.,0.,0.)) ;
#399=DIRECTION('Vector Direction',(0.,0.,1.)) ;
#407=DIRECTION('Vector Direction',(0.,1.,0.)) ;
#415=DIRECTION('Vector Direction',(0.,0.,1.)) ;
#423=DIRECTION('Vector Direction',(0.,1.,0.)) ;
#431=DIRECTION('Vector Direction',(0.,0.,1.)) ;
#439=DIRECTION('Vector Direction',(0.,-1.,0.)) ;
#447=DIRECTION('Vector Direction',(0.,0.,-1.)) ;
#459=DIRECTION('Axis2P3D Direction',(0.,0.,1.)) ;
#460=DIRECTION('Axis2P3D XDirection',(1.,0.,0.)) ;
#48=AXIS2_PLACEMENT_3D(' ',#47,$,$) ;
#55=AXIS2_PLACEMENT_3D('Cylinder Axis2P3D',#52,#53,#54) ;
#59=AXIS2_PLACEMENT_3D('Circle Axis2P3D',#57,#58,$) ;
#75=AXIS2_PLACEMENT_3D('Circle Axis2P3D',#73,#74,$) ;
#94=AXIS2_PLACEMENT_3D('Circle Axis2P3D',#92,#93,$) ;
#99=AXIS2_PLACEMENT_3D('Circle Axis2P3D',#97,#98,$) ;
#112=AXIS2_PLACEMENT_3D('Sphere Axis2P3D',#109,#110,#111) ;
#116=AXIS2_PLACEMENT_3D('Circle Axis2P3D',#114,#115,$) ;
#123=AXIS2_PLACEMENT_3D('Circle Axis2P3D',#121,#122,$) ;
#130=AXIS2_PLACEMENT_3D('Circle Axis2P3D',#128,#129,$) ;
#142=AXIS2_PLACEMENT_3D('Circle Axis2P3D',#140,#141,$) ;
#155=AXIS2_PLACEMENT_3D('Cylinder Axis2P3D',#152,#153,#154) ;
#159=AXIS2_PLACEMENT_3D('Circle Axis2P3D',#157,#158,$) ;
#175=AXIS2_PLACEMENT_3D('Circle Axis2P3D',#173,#174,$) ;
#194=AXIS2_PLACEMENT_3D('Circle Axis2P3D',#192,#193,$) ;
#199=AXIS2_PLACEMENT_3D('Circle Axis2P3D',#197,#198,$) ;
#212=AXIS2_PLACEMENT_3D('Cylinder Axis2P3D',#209,#210,#211) ;
#216=AXIS2_PLACEMENT_3D('Circle Axis2P3D',#214,#215,$) ;
#232=AXIS2_PLACEMENT_3D('Circle Axis2P3D',#230,#231,$) ;
#251=AXIS2_PLACEMENT_3D('Circle Axis2P3D',#249,#250,$) ;
#256=AXIS2_PLACEMENT_3D('Circle Axis2P3D',#254,#255,$) ;
#269=AXIS2_PLACEMENT_3D('Cylinder Axis2P3D',#266,#267,#268) ;
#273=AXIS2_PLACEMENT_3D('Circle Axis2P3D',#271,#272,$) ;
#289=AXIS2_PLACEMENT_3D('Circle Axis2P3D',#287,#288,$) ;
#308=AXIS2_PLACEMENT_3D('Circle Axis2P3D',#306,#307,$) ;
#313=AXIS2_PLACEMENT_3D('Circle Axis2P3D',#311,#312,$) ;
#326=AXIS2_PLACEMENT_3D('Plane Axis2P3D',#323,#324,#325) ;
#340=AXIS2_PLACEMENT_3D('Plane Axis2P3D',#337,#338,#339) ;
#354=AXIS2_PLACEMENT_3D('Plane Axis2P3D',#351,#352,#353) ;
#368=AXIS2_PLACEMENT_3D('Plane Axis2P3D',#365,#366,#367) ;
#392=AXIS2_PLACEMENT_3D('Circle Axis2P3D',#390,#391,$) ;
#461=AXIS2_PLACEMENT_3D('Rep\X2\00E8\X0\re absolu',#458,#459,#460) ;
#40=PRODUCT_DEFINITION_SHAPE(' ',' ',#14) ;
#454=COMPOSITE_CURVE('Esquisse.1',(#389,#397,#405,#413,#421,#429,#437,#445,#453),.U.) ;
#389=COMPOSITE_CURVE_SEGMENT(.CONTINUOUS.,.T.,#388) ;
#397=COMPOSITE_CURVE_SEGMENT(.CONTINUOUS.,.T.,#396) ;
#405=COMPOSITE_CURVE_SEGMENT(.CONTINUOUS.,.T.,#404) ;
#413=COMPOSITE_CURVE_SEGMENT(.CONTINUOUS.,.T.,#412) ;
#421=COMPOSITE_CURVE_SEGMENT(.CONTINUOUS.,.T.,#420) ;
#429=COMPOSITE_CURVE_SEGMENT(.CONTINUOUS.,.T.,#428) ;
#437=COMPOSITE_CURVE_SEGMENT(.CONTINUOUS.,.T.,#436) ;
#445=COMPOSITE_CURVE_SEGMENT(.CONTINUOUS.,.T.,#444) ;
#453=COMPOSITE_CURVE_SEGMENT(.DISCONTINUOUS.,.T.,#452) ;
#31=APPROVAL_PERSON_ORGANIZATION(#25,#21,#19) ;
#25=PERSON_AND_ORGANIZATION(#22,#23) ;
#22=PERSON(' ',' ',' ',$,$,$) ;
#23=ORGANIZATION(' ',' ',' ') ;
#21=APPROVAL(#20,' ') ;
#20=APPROVAL_STATUS('not_yet_approved') ;
#19=APPROVAL_ROLE('APPROVER') ;
#13=DATE_AND_TIME(#11,#12) ;
#12=LOCAL_TIME(9,21,49.,#10) ;
#10=COORDINATED_UNIVERSAL_TIME_OFFSET(0,0,.AHEAD.) ;
#86=ORIENTED_EDGE('',*,*,#65,.F.) ;
#87=ORIENTED_EDGE('',*,*,#72,.T.) ;
#88=ORIENTED_EDGE('',*,*,#79,.T.) ;
#89=ORIENTED_EDGE('',*,*,#84,.F.) ;
#103=ORIENTED_EDGE('',*,*,#96,.F.) ;
#104=ORIENTED_EDGE('',*,*,#84,.T.) ;
#105=ORIENTED_EDGE('',*,*,#101,.T.) ;
#106=ORIENTED_EDGE('',*,*,#72,.F.) ;
#134=ORIENTED_EDGE('',*,*,#79,.F.) ;
#135=ORIENTED_EDGE('',*,*,#120,.T.) ;
#136=ORIENTED_EDGE('',*,*,#127,.T.) ;
#137=ORIENTED_EDGE('',*,*,#132,.F.) ;
#146=ORIENTED_EDGE('',*,*,#101,.F.) ;
#147=ORIENTED_EDGE('',*,*,#132,.T.) ;
#148=ORIENTED_EDGE('',*,*,#144,.T.) ;
#149=ORIENTED_EDGE('',*,*,#120,.F.) ;
#186=ORIENTED_EDGE('',*,*,#165,.F.) ;
#187=ORIENTED_EDGE('',*,*,#172,.T.) ;
#188=ORIENTED_EDGE('',*,*,#179,.T.) ;
#189=ORIENTED_EDGE('',*,*,#184,.F.) ;
#203=ORIENTED_EDGE('',*,*,#196,.F.) ;
#204=ORIENTED_EDGE('',*,*,#184,.T.) ;
#205=ORIENTED_EDGE('',*,*,#201,.T.) ;
#206=ORIENTED_EDGE('',*,*,#172,.F.) ;
#243=ORIENTED_EDGE('',*,*,#222,.F.) ;
#244=ORIENTED_EDGE('',*,*,#229,.T.) ;
#245=ORIENTED_EDGE('',*,*,#236,.T.) ;
#246=ORIENTED_EDGE('',*,*,#241,.F.) ;
#260=ORIENTED_EDGE('',*,*,#253,.F.) ;
#261=ORIENTED_EDGE('',*,*,#241,.T.) ;
#262=ORIENTED_EDGE('',*,*,#258,.T.) ;
#263=ORIENTED_EDGE('',*,*,#229,.F.) ;
#300=ORIENTED_EDGE('',*,*,#279,.F.) ;
#301=ORIENTED_EDGE('',*,*,#286,.T.) ;
#302=ORIENTED_EDGE('',*,*,#293,.T.) ;
#303=ORIENTED_EDGE('',*,*,#298,.F.) ;
#317=ORIENTED_EDGE('',*,*,#310,.F.) ;
#318=ORIENTED_EDGE('',*,*,#298,.T.) ;
#319=ORIENTED_EDGE('',*,*,#315,.T.) ;
#320=ORIENTED_EDGE('',*,*,#286,.F.) ;
#329=ORIENTED_EDGE('',*,*,#127,.F.) ;
#330=ORIENTED_EDGE('',*,*,#144,.F.) ;
#333=ORIENTED_EDGE('',*,*,#196,.T.) ;
#334=ORIENTED_EDGE('',*,*,#165,.T.) ;
#343=ORIENTED_EDGE('',*,*,#179,.F.) ;
#344=ORIENTED_EDGE('',*,*,#201,.F.) ;
#347=ORIENTED_EDGE('',*,*,#253,.T.) ;
#348=ORIENTED_EDGE('',*,*,#222,.T.) ;
#357=ORIENTED_EDGE('',*,*,#236,.F.) ;
#358=ORIENTED_EDGE('',*,*,#258,.F.) ;
#361=ORIENTED_EDGE('',*,*,#310,.T.) ;
#362=ORIENTED_EDGE('',*,*,#279,.T.) ;
#371=ORIENTED_EDGE('',*,*,#96,.T.) ;
#372=ORIENTED_EDGE('',*,*,#65,.T.) ;
#375=ORIENTED_EDGE('',*,*,#293,.F.) ;
#376=ORIENTED_EDGE('',*,*,#315,.F.) ;
#335=FACE_BOUND('',#332,.T.) ;
#349=FACE_BOUND('',#346,.T.) ;
#363=FACE_BOUND('',#360,.T.) ;
#377=FACE_BOUND('',#374,.T.) ;
#51=CLOSED_SHELL('Closed Shell',(#91,#108,#139,#151,#191,#208,#248,#265,#305,#322,#336,#350,#364,#378)) ;
#68=VECTOR('Line Direction',#67,1.) ;
#82=VECTOR('Line Direction',#81,1.) ;
#168=VECTOR('Line Direction',#167,1.) ;
#182=VECTOR('Line Direction',#181,1.) ;
#225=VECTOR('Line Direction',#224,1.) ;
#239=VECTOR('Line Direction',#238,1.) ;
#282=VECTOR('Line Direction',#281,1.) ;
#296=VECTOR('Line Direction',#295,1.) ;
#384=VECTOR('Line Direction',#383,1.) ;
#400=VECTOR('Line Direction',#399,1.) ;
#408=VECTOR('Line Direction',#407,1.) ;
#416=VECTOR('Line Direction',#415,1.) ;
#424=VECTOR('Line Direction',#423,1.) ;
#432=VECTOR('Line Direction',#431,1.) ;
#440=VECTOR('Line Direction',#439,1.) ;
#448=VECTOR('Line Direction',#447,1.) ;
#380=ADVANCED_BREP_SHAPE_REPRESENTATION('NONE',(#379),#46) ;
#49=SHAPE_REPRESENTATION(' ',(#48),#46) ;
#91=ADVANCED_FACE('Corps principal',(#90),#56,.T.) ;
#108=ADVANCED_FACE('Corps principal',(#107),#56,.T.) ;
#139=ADVANCED_FACE('Corps principal',(#138),#113,.T.) ;
#151=ADVANCED_FACE('Corps principal',(#150),#113,.T.) ;
#191=ADVANCED_FACE('Corps principal',(#190),#156,.T.) ;
#208=ADVANCED_FACE('Corps principal',(#207),#156,.T.) ;
#248=ADVANCED_FACE('Corps principal',(#247),#213,.T.) ;
#265=ADVANCED_FACE('Corps principal',(#264),#213,.T.) ;
#305=ADVANCED_FACE('Corps principal',(#304),#270,.F.) ;
#322=ADVANCED_FACE('Corps principal',(#321),#270,.F.) ;
#336=ADVANCED_FACE('Corps principal',(#331,#335),#327,.F.) ;
#350=ADVANCED_FACE('Corps principal',(#345,#349),#341,.F.) ;
#364=ADVANCED_FACE('Corps principal',(#359,#363),#355,.F.) ;
#378=ADVANCED_FACE('Corps principal',(#373,#377),#369,.T.) ;
#4=APPLICATION_PROTOCOL_DEFINITION('international standard','config_control_design',1994,#1) ;
#32=APPROVAL_DATE_TIME(#13,#21) ;
#379=MANIFOLD_SOLID_BREP('Corps principal',#51) ;
#11=CALENDAR_DATE(2021,14,10) ;
#30=CC_DESIGN_APPROVAL(#21,(#16,#6,#14)) ;
#18=CC_DESIGN_DATE_AND_TIME_ASSIGNMENT(#13,#17,(#16)) ;
#29=CC_DESIGN_DATE_AND_TIME_ASSIGNMENT(#13,#28,(#14)) ;
#17=DATE_TIME_ROLE('classification_date') ;
#28=DATE_TIME_ROLE('creation_date') ;
#27=CC_DESIGN_PERSON_AND_ORGANIZATION_ASSIGNMENT(#25,#26,(#16)) ;
#33=CC_DESIGN_PERSON_AND_ORGANIZATION_ASSIGNMENT(#25,#34,(#6)) ;
#35=CC_DESIGN_PERSON_AND_ORGANIZATION_ASSIGNMENT(#25,#36,(#6,#14)) ;
#37=CC_DESIGN_PERSON_AND_ORGANIZATION_ASSIGNMENT(#25,#38,(#5)) ;
#26=PERSON_AND_ORGANIZATION_ROLE('classification_officer') ;
#34=PERSON_AND_ORGANIZATION_ROLE('design_supplier') ;
#36=PERSON_AND_ORGANIZATION_ROLE('creator') ;
#38=PERSON_AND_ORGANIZATION_ROLE('design_owner') ;
#39=CC_DESIGN_SECURITY_CLASSIFICATION(#16,(#6)) ;
#60=CIRCLE('generated circle',#59,14.) ;
#76=CIRCLE('generated circle',#75,14.) ;
#95=CIRCLE('generated circle',#94,14.) ;
#100=CIRCLE('generated circle',#99,14.) ;
#117=CIRCLE('generated circle',#116,19.) ;
#124=CIRCLE('generated circle',#123,17.2336879396) ;
#131=CIRCLE('generated circle',#130,19.) ;
#143=CIRCLE('generated circle',#142,17.2336879396) ;
#160=CIRCLE('generated circle',#159,14.85) ;
#176=CIRCLE('generated circle',#175,14.85) ;
#195=CIRCLE('generated circle',#194,14.85) ;
#200=CIRCLE('generated circle',#199,14.85) ;
#217=CIRCLE('generated circle',#216,12.) ;
#233=CIRCLE('generated circle',#232,12.) ;
#252=CIRCLE('generated circle',#251,12.) ;
#257=CIRCLE('generated circle',#256,12.) ;
#274=CIRCLE('generated circle',#273,9.5) ;
#290=CIRCLE('generated circle',#289,9.5) ;
#309=CIRCLE('generated circle',#308,9.5) ;
#314=CIRCLE('generated circle',#313,9.5) ;
#393=CIRCLE('generated circle',#392,19.) ;
#381=SHAPE_REPRESENTATION_RELATIONSHIP(' ',' ',#49,#380) ;
#457=SHAPE_REPRESENTATION_RELATIONSHIP(' ',' ',#49,#455) ;
#56=CYLINDRICAL_SURFACE('generated cylinder',#55,14.) ;
#156=CYLINDRICAL_SURFACE('generated cylinder',#155,14.85) ;
#213=CYLINDRICAL_SURFACE('generated cylinder',#212,12.) ;
#270=CYLINDRICAL_SURFACE('generated cylinder',#269,9.5) ;
#3=DESIGN_CONTEXT(' ',#1,'design') ;
#65=EDGE_CURVE('',#62,#64,#60,.T.) ;
#72=EDGE_CURVE('',#62,#71,#69,.F.) ;
#79=EDGE_CURVE('',#71,#78,#76,.T.) ;
#84=EDGE_CURVE('',#64,#78,#83,.F.) ;
#96=EDGE_CURVE('',#64,#62,#95,.T.) ;
#101=EDGE_CURVE('',#78,#71,#100,.T.) ;
#120=EDGE_CURVE('',#71,#119,#117,.F.) ;
#127=EDGE_CURVE('',#119,#126,#124,.T.) ;
#132=EDGE_CURVE('',#78,#126,#131,.F.) ;
#144=EDGE_CURVE('',#126,#119,#143,.T.) ;
#165=EDGE_CURVE('',#162,#164,#160,.T.) ;
#172=EDGE_CURVE('',#162,#171,#169,.F.) ;
#179=EDGE_CURVE('',#171,#178,#176,.T.) ;
#184=EDGE_CURVE('',#164,#178,#183,.F.) ;
#196=EDGE_CURVE('',#164,#162,#195,.T.) ;
#201=EDGE_CURVE('',#178,#171,#200,.T.) ;
#222=EDGE_CURVE('',#219,#221,#217,.T.) ;
#229=EDGE_CURVE('',#219,#228,#226,.F.) ;
#236=EDGE_CURVE('',#228,#235,#233,.T.) ;
#241=EDGE_CURVE('',#221,#235,#240,.F.) ;
#253=EDGE_CURVE('',#221,#219,#252,.T.) ;
#258=EDGE_CURVE('',#235,#228,#257,.T.) ;
#279=EDGE_CURVE('',#276,#278,#274,.T.) ;
#286=EDGE_CURVE('',#276,#285,#283,.T.) ;
#293=EDGE_CURVE('',#285,#292,#290,.T.) ;
#298=EDGE_CURVE('',#278,#292,#297,.T.) ;
#310=EDGE_CURVE('',#278,#276,#309,.T.) ;
#315=EDGE_CURVE('',#292,#285,#314,.T.) ;
#85=EDGE_LOOP('',(#86,#87,#88,#89)) ;
#102=EDGE_LOOP('',(#103,#104,#105,#106)) ;
#133=EDGE_LOOP('',(#134,#135,#136,#137)) ;
#145=EDGE_LOOP('',(#146,#147,#148,#149)) ;
#185=EDGE_LOOP('',(#186,#187,#188,#189)) ;
#202=EDGE_LOOP('',(#203,#204,#205,#206)) ;
#242=EDGE_LOOP('',(#243,#244,#245,#246)) ;
#259=EDGE_LOOP('',(#260,#261,#262,#263)) ;
#299=EDGE_LOOP('',(#300,#301,#302,#303)) ;
#316=EDGE_LOOP('',(#317,#318,#319,#320)) ;
#328=EDGE_LOOP('',(#329,#330)) ;
#332=EDGE_LOOP('',(#333,#334)) ;
#342=EDGE_LOOP('',(#343,#344)) ;
#346=EDGE_LOOP('',(#347,#348)) ;
#356=EDGE_LOOP('',(#357,#358)) ;
#360=EDGE_LOOP('',(#361,#362)) ;
#370=EDGE_LOOP('',(#371,#372)) ;
#374=EDGE_LOOP('',(#375,#376)) ;
#90=FACE_OUTER_BOUND('',#85,.T.) ;
#107=FACE_OUTER_BOUND('',#102,.T.) ;
#138=FACE_OUTER_BOUND('',#133,.T.) ;
#150=FACE_OUTER_BOUND('',#145,.T.) ;
#190=FACE_OUTER_BOUND('',#185,.T.) ;
#207=FACE_OUTER_BOUND('',#202,.T.) ;
#247=FACE_OUTER_BOUND('',#242,.T.) ;
#264=FACE_OUTER_BOUND('',#259,.T.) ;
#304=FACE_OUTER_BOUND('',#299,.T.) ;
#321=FACE_OUTER_BOUND('',#316,.T.) ;
#331=FACE_OUTER_BOUND('',#328,.T.) ;
#345=FACE_OUTER_BOUND('',#342,.T.) ;
#359=FACE_OUTER_BOUND('',#356,.T.) ;
#373=FACE_OUTER_BOUND('',#370,.T.) ;
#456=GEOMETRIC_SET('NONE',(#454)) ;
#455=GEOMETRICALLY_BOUNDED_SURFACE_SHAPE_REPRESENTATION('NONE',(#456),#46) ;
#45=UNCERTAINTY_MEASURE_WITH_UNIT(LENGTH_MEASURE(0.005),#41,'distance_accuracy_value','CONFUSED CURVE UNCERTAINTY') ;
#69=LINE('Line',#66,#68) ;
#83=LINE('Line',#80,#82) ;
#169=LINE('Line',#166,#168) ;
#183=LINE('Line',#180,#182) ;
#226=LINE('Line',#223,#225) ;
#240=LINE('Line',#237,#239) ;
#283=LINE('Line',#280,#282) ;
#297=LINE('Line',#294,#296) ;
#385=LINE('Line',#382,#384) ;
#401=LINE('Line',#398,#400) ;
#409=LINE('Line',#406,#408) ;
#417=LINE('Line',#414,#416) ;
#425=LINE('Line',#422,#424) ;
#433=LINE('Line',#430,#432) ;
#441=LINE('Line',#438,#440) ;
#449=LINE('Line',#446,#448) ;
#2=MECHANICAL_CONTEXT(' ',#1,'mechanical') ;
#24=PERSONAL_ADDRESS(' ',' ',' ',' ',' ',' ',' ',' ',' ',' ',' ',' ',(#22),' ') ;
#327=PLANE('',#326) ;
#341=PLANE('',#340) ;
#355=PLANE('',#354) ;
#369=PLANE('',#368) ;
#43=PLANE_ANGLE_MEASURE_WITH_UNIT(PLANE_ANGLE_MEASURE(0.0174532925199),#42) ;
#7=PRODUCT_CATEGORY('part',$) ;
#9=PRODUCT_CATEGORY_RELATIONSHIP(' ',' ',#7,#8) ;
#6=PRODUCT_DEFINITION_FORMATION_WITH_SPECIFIED_SOURCE('',' ',#5,.NOT_KNOWN.) ;
#8=PRODUCT_RELATED_PRODUCT_CATEGORY('detail',$,(#5)) ;
#50=SHAPE_DEFINITION_REPRESENTATION(#40,#49) ;
#113=SPHERICAL_SURFACE('',#112,19.) ;
#388=TRIMMED_CURVE('',#385,(#386),(#387),.T.,.CARTESIAN.) ;
#396=TRIMMED_CURVE('',#393,(#394),(#395),.T.,.CARTESIAN.) ;
#404=TRIMMED_CURVE('',#401,(#402),(#403),.F.,.CARTESIAN.) ;
#412=TRIMMED_CURVE('',#409,(#410),(#411),.F.,.CARTESIAN.) ;
#420=TRIMMED_CURVE('',#417,(#418),(#419),.F.,.CARTESIAN.) ;
#428=TRIMMED_CURVE('',#425,(#426),(#427),.F.,.CARTESIAN.) ;
#436=TRIMMED_CURVE('',#433,(#434),(#435),.F.,.CARTESIAN.) ;
#444=TRIMMED_CURVE('',#441,(#442),(#443),.F.,.CARTESIAN.) ;
#452=TRIMMED_CURVE('',#449,(#450),(#451),.F.,.CARTESIAN.) ;
#62=VERTEX_POINT('',#61) ;
#64=VERTEX_POINT('',#63) ;
#71=VERTEX_POINT('',#70) ;
#78=VERTEX_POINT('',#77) ;
#119=VERTEX_POINT('',#118) ;
#126=VERTEX_POINT('',#125) ;
#162=VERTEX_POINT('',#161) ;
#164=VERTEX_POINT('',#163) ;
#171=VERTEX_POINT('',#170) ;
#178=VERTEX_POINT('',#177) ;
#219=VERTEX_POINT('',#218) ;
#221=VERTEX_POINT('',#220) ;
#228=VERTEX_POINT('',#227) ;
#235=VERTEX_POINT('',#234) ;
#276=VERTEX_POINT('',#275) ;
#278=VERTEX_POINT('',#277) ;
#285=VERTEX_POINT('',#284) ;
#292=VERTEX_POINT('',#291) ;
#41=(LENGTH_UNIT()NAMED_UNIT(*)SI_UNIT(.MILLI.,.METRE.)) ;
#42=(NAMED_UNIT(*)PLANE_ANGLE_UNIT()SI_UNIT($,.RADIAN.)) ;
#44=(NAMED_UNIT(*)SI_UNIT($,.STERADIAN.)SOLID_ANGLE_UNIT()) ;
#46=(GEOMETRIC_REPRESENTATION_CONTEXT(3)GLOBAL_UNCERTAINTY_ASSIGNED_CONTEXT((#45))GLOBAL_UNIT_ASSIGNED_CONTEXT((#41,#42,#44))REPRESENTATION_CONTEXT(' ',' ')) ;
ENDSEC;
END-ISO-10303-21;
